Rezil Gitar Tabları - Duman

'Müzik Türleri ve Enstrümanları' forumunda Mavi_inci tarafından 12 Mayıs 2011 tarihinde açılan konu

  1. Mavi_inci

    Mavi_inci Özel Üye

    Sponsorlu Bağlantılar
    Rezil Gitar Tabları - Duman konusu Rezil Gitar Tabları - Duman-Duman Rezil gitar akorları

    Giris

    | Ritim |
    |D|-4-4-4----7-7------9-9-9----10-10-------4-4-4----7-7------6-6-6----5-5-----||
    |A|-4-4-4----7-7------9-9-9----10-10-------4-4-4----7-7------6-6-6----5-5-----||
    |E|-2-2-2----5-5------7-7-7----8--8--------2-2-2----5-5------4-4-4----3-3-----||
    | | X2
    | Solo |
    |B|-----5--------8--------10--------11---------5------8----------7------6-----||
    |G|---3--------6--------8---------9----------3----------6------5----------4---||
    |D|-4--------7--------9--------10----------4--------7--------6--------5-------||


    Sozler

    A|---1-4---2----1-4---2-|
    E|-2-----3----2-----0---| X6 (Sozler ucuncude giriyor)

    Ortada bir yanlis var
    Yanlisi yapan yanar
    Arkasinda sandik var
    Degmesin akincilar

    A|---6-9---7----6-9---7-|
    E|-7-----8----7-----5---| X2

    Geri kac, geri kac
    Oglanci
    Seninle basim yanar

    A|---1-4---2----1-4---2-|
    E|-2-----3----2-----0---| X2

    Ortada bir yanlis var
    Memleket uyurgezer


    Gecis

    C# C# C# C# B

    G|-10--10--10--10------8----|
    D|-11--11--11--11------9----|
    A|-11--11--11--11------9----|
    E|-9---9---9---9-------7----|

    Al-dir-ma geldik oyuna


    Nakarat
    D|-4-4-4----7-7------9-9-9----10-10-------4-4-4----7-7------6-6-6----5-5-----|
    A|-4-4-4----7-7------9-9-9----10-10-------4-4-4----7-7------6-6-6----5-5-----|
    E|-2-2-2----5-5------7-7-7----8--8--------2-2-2----5-5------4-4-4----3-3-----|

    Kandir beni kandir- sana
    Rez- il kandir- sana

    Alıntı
     

Bu Sayfayı Paylaş