Mor Ve Ötesi Sor Şarkısı Gitar Notası

'Müzik Türleri ve Enstrümanları' forumunda SeLeN tarafından 8 Ağustos 2010 tarihinde açılan konu

  1. SeLeN

    SeLeN Site Yetkilisi Editör

    Sponsorlu Bağlantılar
    Mor Ve Ötesi Sor Şarkısı Gitar Notası konusu Sor Notaları - Şarkı Notaları - Notalar - Akor Notları - Gitar Notaları


    intro
    ^ ^
    -7--7-8---7-------------12--12------------7--7-8---7-------------12--12------
    -----------------10------------------------------------------10--------------
    -----------------------------------------------------------------------------
    -----------------------------------------------------------------------------
    -----------------------------------------------------------------------------
    -----------------------------------------------------------------------------

    ^ ^
    -7--7-8---7-------------13--13------------7--7-8---7----------13--13---------
    -----------------10------------------------------------10--------------------
    -----------------------------------------------------------------------------
    -----------------------------------------------------------------------------
    -----------------------------------------------------------------------------
    -----------------------------------------------------------------------------

    -10----13------8---13------7-----12-------------------------------------------
    -----------------------------------------------------------------------------
    -----------------------------------------------------------------------------
    -----------------------------------------------------------------------------
    -----------------------------------------------------------------------------
    -----------------------------------------------------------------------------

    Am
    Yoruldum
    C
    Çok yoruldum
    Fmaj7 Eadd11
    Bilincim bir var, bir yok
    Am C
    Yalandın, yaralandın
    Fmaj7 Cmaj/G
    Dermanının ismi yok
    F C
    Umudun yanında mı?
    Gmaj E7
    Hayatın hep zorda mı?
    F C
    Gururun yanında mı?
    Gmaj E7 Am
    Nerelerden geçtin de
    AM Dm
    Yine mi hüzün var, niye?
    Am
    Kendini bilene sor
    Dm
    Yine mi hüzün var, niye?
    F E7 Am
    Niye?
     

Bu Sayfayı Paylaş