Mor ve Ötesi - Sevda Çiçeği - Tab

'Müzik Türleri ve Enstrümanları' forumunda KaRDeLeN tarafından 26 Nisan 2010 tarihinde açılan konu

  1. KaRDeLeN

    KaRDeLeN Özel Üye

    Sponsorlu Bağlantılar
    Mor ve Ötesi - Sevda Çiçeği - Tab konusu Mor ve Ötesi - Sevda Çiçeği - Tab


    --INTRO--

    A -7---7-7-5-4-5---5-5-4-2-4---4-4-2-1-2--------2---2-2-1-1---1-1-------------------

    E --0-0-0-------0-0-0-------0-0-0--------3-2-0---0-0-0---3-0-0-0-3-2-3-6-7-6-3-2-0--


    söz giriyo..

    A ----------------------------------

    E -7-7-6-7-6-6-6-7-7-7-6-3-2-0------ 2 KERE

    sessiz sedasız...

    kimse bilemez...

    A -7-7-5-4-5-5-4-2-4-4-2-1-2-2-2-1-2-1-1-1-2-2-1--------

    E -----------------------------------------------3-2-0--

    sonsuz ve dipsiz...

    sakin kimsesiz...

    A ---------------------------------7-4-5-2-4-1-2--2-2-1------------

    E -0-2-3-5-X-5-X-5-X-7-X-7-6-3-2-0--------------3-------3-3-2-0----
     

Bu Sayfayı Paylaş