Gül Güzeli Gitar Tabları - Umut Kaya

'Müzik Türleri ve Enstrümanları' forumunda Mavi_inci tarafından 12 Mayıs 2011 tarihinde açılan konu

  1. Mavi_inci

    Mavi_inci Özel Üye

    Sponsorlu Bağlantılar
    Gül Güzeli Gitar Tabları - Umut Kaya konusu Gül Güzeli Gitar Tabları - Umut Kaya-Umut Kaya Gül Güzeli gitar akorları



    E||----------------------------------------------------------|
    B||----------------------------------------------------------|
    G||----------------------------------------------------------|
    D||----------------------------------------------------------|
    A||---------12-12-------11-11-----------9-9---8--------------|
    E||----8--------------8-------------8---------8--------------|

    E||----------------------------------------------------------|
    B||----------------------------------------------------------|
    G||----------------------------------------------------------|
    D||----------------------------------------------------------|
    A||---------12-12-------11-11-----------9-9---8--------------|
    E||----8--------------8-------------8---------8--------------|

    E||------------------------------------------------------------------------------|
    B||------------------------------------------------------------------------------|
    G||------------------------------------------------------------------------------|
    D||-------------------------------------------------------------------------------|
    A||---------12-12-------11-11-----------9-9---8-----6----6-6-6----8/10---6h5h4----|
    E||----8--------------8-------------8---------8-----6----6-6-6----8/10---6h5h4----|


    E||-----------------------------------------------------|
    B||-----------------------------------------------------|
    G||-----------------------------------------------------|
    D||-----------------------------------------------------|
    A||-----------------------------------------------------|
    E||----12-12-12/11---11-11-11/9---9-9-9/8----8----------|

    E||-----------------------------------------------------|
    B||-----------------------------------------------------|
    G||-----------------------------------------------------|
    D||-----------------------------------------------------|
    A||-----------------------------------------------------|
    E||-----8--8/12-12-12/11---11-11-11/9---9-9-9/8----8----|


    E||-----------------------------------------------------------------|
    B||-----------------------------------------------------------------|
    G||-----------------------------------------------------------------|
    D||-----------------------------------------------------------------|
    A||-----------------------------------------------------------------|
    E||----12-12-12/11---11-11-11/9---9-9-9/5--5--5-5-5---7/9--5h4h3----|

    Alıntı
     

Bu Sayfayı Paylaş