Göktan - Sen Tab Notaları

'Müzik Türleri ve Enstrümanları' forumunda DeMSaL tarafından 14 Mart 2010 tarihinde açılan konu

  1. DeMSaL

    DeMSaL Özel Üye

    Sponsorlu Bağlantılar
    Göktan - Sen Tab Notaları konusu
    Tab Notaları - Göktan Sen Şarkı Notası - Şarkı Notaları - Notalar




    -Giriş-

    ----------------------------------------------------------------
    ----------------------------------------------------------------
    G---7-6-7-9-7-6-7-6-4-7---6-7-9-7-6-7-6-4-6------6-7-6-4-3-0-3-4
    ----------------------------------------------------------------
    ----------------------------------------------------------------
    ----------------------------------------------------------------



    Diğer solo


    B--8-7-5-3-2-3-2------------7-5-3-2-0-2-0----------------5-3-2-0--0----2-0-||-2--3--567
    G-------------------2-4-6-----------------------0-2-4----------------3--3----------------




    B--8-7-5-3-2-3-2-------------7-5-3-2-0-2-0----------------5-3-2-0--0----2-0-||-2-0---0--
    G-------------------2-4-6-----------------------0-2-4-----------------3--3---------------3----
     

Bu Sayfayı Paylaş