Evanescence - Understanding ( Understanding gitar akorları )

'Müzik Türleri ve Enstrümanları' forumunda Mavi_Sema tarafından 5 Kasım 2009 tarihinde açılan konu

  1. Mavi_Sema

    Mavi_Sema Özel Üye

    Sponsorlu Bağlantılar
    Evanescence - Understanding ( Understanding gitar akorları ) konusu GTR 1
    e-3-----2-----3-----5-----3-----2-----3-----5-----3-----2---------3-----3--------
    a---3-----3-----3-----3-----3-----3-----3-----3-----3-----3---3-----3-----3------
    G-----0-----0-----0-----0-----0-----0-----0-----0-----0-----0---0-----0-----0----
    D--------------------------------------------------------------------------------
    A--------------------------------------------------------------------------------
    E--------------------------------------------------------------------------------

    e-3-----3-----3-------2-----2-----2-----2-----2-------I
    a---3-----3-----3---3---2-----2-----2-----2-----2---2-I
    G-----0-----0-----0-----------------------------------I
    D-------------------------4-----4-----4-----4-----4---I
    A-----------------------------------------------------I
    E-----------------------------------------------------I

    For Verse 1, repeat main riff until the lyrics:[​IMG][​IMG][​IMG] from who we are, then start playing this:
    (I guess you could call it the Pre-chorus)
    (Gtr 2 begins to strum chords over top of Gtr 1[​IMG])
    Gtr[​IMG] 1
    e-2-----2-----3-----2-----2-----3--5-----5-----3-----2-----2-------2h3-2h3-2h3---
    a---3-----3-----3-----3-----3--------3-----3-----3-----3-----3---3---------------
    G-----0-----0-----0-----0-----0--------0-----0-----0-----0-----0-----------------
    D--------------------------------------------------------------------------------
    A--------------------------------------------------------------------------------
    E--------------------------------------------------------------------------------

    e-2h3-2h3-----3p2-2-----2-----2-----2-----2-------I
    a----------3-------2-----2-----2-----2-----2---2-I
    G---------0---------------------------------------I
    D---------------------4-----4-----4-----4-----4---I
    A-------------------------------------------------I
    E-------------------------------------------------I


    Chorus:
    e-3-----3-----3-----3-----3-------2-----2-----2-----2-----2-------3-----3--------
    a---3-----3-----3-----3-----3---3---2-----2-----2-----2-----2---2---3-----3------
    G-----0-----0-----0-----0-----0---------------------------------------0-----0----
    D-------------------------------------4-----4-----4-----4-----4------------------
    A--------------------------------------------------------------------------------
    E--------------------------------------------------------------------------------

    e-5-----3-----3-------3-----3-----5-----3-----3-----3-I
    a---3-----3-----3---3---3-----3-----3-----3-----3-----I *break*
    G-----0-----0-----0-------0-----0-----0-----0-----0---I
    D-----------------------------------------------------I
    A-----------------------------------------------------I
    E-----------------------------------------------------I
    Verse 2: Play main riff until the second prechorus, which is after these lyrics: bear it all alone: Gtr 2 continues to strum on top[​IMG]

    e-2-----2-----2h3-----2-----2-----3--5-----5-----3-----2-----2-------2h3-2h3-2h3-
    a---3-----3-------3-----3-----3--------3-----3-----3-----3-----3---3-------------
    G-----0-----0-------0-----0-----0--------0-----0-----0-----0-----0---------------
    D--------------------------------------------------------------------------------
    A--------------------------------------------------------------------------------
    E--------------------------------------------------------------------------------

    e-2h3-2h3-----3p2-2-----2-----2-----2-----2-------I
    a-----------3-------2-----2-----2-----2-----2---2-I
    G---------0---------------------------------------I
    D---------------------4-----4-----4-----4-----4---I
    A-------------------------------------------------I
    E-------------------------------------------------I
     

Bu Sayfayı Paylaş