Dead Skin Mask Gitar Tabları - Slayer

'Müzik Türleri ve Enstrümanları' forumunda KaRDeLeN tarafından 6 Temmuz 2010 tarihinde açılan konu

  1. KaRDeLeN

    KaRDeLeN Özel Üye

    Sponsorlu Bağlantılar
    Dead Skin Mask Gitar Tabları - Slayer konusu Dead Skin Mask Gitar Tabları - Slayer -Gitar Tabları


    Intro and Riff 1
    King
    |-----------------------------------------|
    |-----------------------------------------|
    |-----------------------------------9~~~~~|
    |-----9-10-----9-10-----9-10---9-10-------|
    |---7--------8--------7------8------------|
    |-0--------0--------0---------------------|
    |Guitar 1 (king) after intro |
    |-----------------------------------------|
    |-----------------------------------------|
    |-9~~~~~~~~~~~~~~~~~~~~~~~~~~~~~~~~~~~~~~~|
    |-----------------------------------------|
    |-----------------------------------------|
    |-----------------------------------------|

    Both guitars (king and Hanneman)
    |--------------------------------------|
    |--------------------------------------|
    |-----------------------------------9~~|
    |-----9-10-----9-10-----9-10---9-10----|
    |---7--------8--------7------8---------|
    |-0--------0--------0------------------|
    | |
    |--------------------------------------|
    |--------------------------------------|
    |-----------------------------------9~~|
    |-----9-10-----9-10-----9-10---9-10----|
    |---7--------8--------7------8---------|
    |-0--------0--------0------------------|


    Then during voice both guitars After voice
    |--------------------------------------|-----------------|
    |--------------------------------------|-----------------|
    |-----------------------------------9~~|-----------------|
    |-----9-10-----9-10-----9-10---9-10----|-7-8-(8)\--------|
    |---7--------8--------7------8---------|-7-8-(8)\--------|
    |-0--------0--------0------------------|-5-6-(6)\-3-1-0-1|

    After that repeat riff 1 w/both guitars then play

    Riff 2
    |-----------------|---------------------------------------------------------|
    |-----------------|---------------------------------------------------------|
    |-----------------|---------------------------------------------------------|
    |-7-8-(8)\--------|--------1-------------2-------------3--------(8)\--------|
    |-7-8-(8)\--------|-2------1-------------2-------------3--------(8)\--------|
    |-5-6-(6)\-3-1-0-1|-0--0-0---0-0-3-1-0-1---0-0-3-1-0-3---0-0-5-6(6)\-3-1-0-1|






    Riff 3 When Tom starts singing
    |----------------------------------------------------------------------|
    |----------------------------------------------------------------------|
    |----------------------------------------------------------------------|
    |-----------------------------------------------------7-8-(8)\---------|
    |-2------(2)--------------------2------(2)------------7-8-(8)\---------|
    |-0------(0)------------3-1-0-1-0------(0)------------5-6-(6)\--3-1-0-1|


    Then Play Riff 1 w/both guitars and Riff 3 Again after play this

    Riff 4 (Bridge riff)
    |---------------------------|-----------------------------|
    |---------------------------|-----------------------------|
    |--------------------8------|-----------------------------|
    |-----------9--8~------9----|----------9--8~-(8)\--3--5--2|
    |--------7---------------10-|--------7-------------3--5--2|
    |-0----0-----------0--------|-0----0---------------1--3--0

    Solo 1 (king)
    :-------------------------------|--------------------------------------|
    :-------------------------------|--------------------------------------|
    :-------------------------------|-------------------11h14p11-12-(12)~~~*
    :-------------------11h12h11----|----------11h12h14--------------------|
    :----------10h12h14----------14-|-10h12h14-----------------------------|
    :-10h12h14----------------------|--------------------------------------|


    :-------5/-|-/17p16-17p16-13p12-17p16-17p16-13p12-------------------------|
    :----------|--------------------------------------17p15-17p15-13p12-17p15-|
    12)\-----|--------------------------------------------------------------|
    :----------|--------------------------------------------------------------|
    :----------|--------------------------------------------------------------|
    :----------|--------------------------------------------------------------|


    :-------------------------------------------------------------------------|
    :-17p15-13p12-------------------------------------------------------------|
    :-------------16p14-16p14-13p11-16p14-16p14-13p11-------------------------|
    :-------------------------------------------------15p14-15p14-12p10-------|
    :-------------------------------------------------------------------15p14-|
    :-------------------------------------------------------------------------|

    Solo 2 (hanneman)
    :-----------------|-------12--17-12-------------------------------------|
    :-----------------|----15-----------15----------------------------------|
    :-----------------|-14------------------14b/\/\/\/\/\--(14)--(14)\------|
    :-----------------|-----------------------------------------------------|
    :-15p14-12p10-12b-|--------------------------------------------------X\-|
    :-----------------|-----------------------------------------------------|


    :------------------------------------------------------------------------|
    :----------------------------------------------------------------12h13h15|
    :----------------------------------------------------12h14p12h14---------|
    :----------------------------------12h13h14-12h13h14---------------------|
    :9h10h12-9h10h12-12h13h15-12h13h15---------------------------------------|
    :------------------------------------------------------------------------|

    solo 3 (king)
    :-12h13p12h13p12-----------------------------------*--------------------|
    :----------------15p13p12-13p12p10--12b--12b--12b\-*-/13p9h13p9\6p0h6h9-|
    :--------------------------------------------------*--------------------|
    :--------------------------------------------------*--------------------|
    :--------------------------------------------------*--------------------|
    :--------------------------------------------------*--------------------|



    :------------------------------------------------------------------------|
    :-/13p9h13p9\6p0h6h8/12p8h12p8\6p0h3h6/-10p6h10p6\3p0h3h6/--/12-(12)~~~~~|
    :------------------------------------------------------------------------|
    :------------------------------------------------------------------------|
    :------------------------------------------------------------------------|
    :------------------------------------------------------------------------|


    :-----------16---19p17p16-19p17p16--18p16p15-17p15p14-16p14p13-15p13p12----|
    :-10--12/17--------------------------------------------------------------x\|
    :--------------------------------------------------------------------------|
    :--------------------------------------------------------------------------|
    :--------------------------------------------------------------------------|
    :--------------------------------------------------------------------------|







    solo 4 (hanneman)
    :-----------------------------------------------------------------------|
    :-----------------------------------------------------------------------|
    :-----------------------------8h10h12-8h10h12--9h11h13-9h11h13-10h11h13-|
    :---------------7h8h10-7h8h10-------------------------------------------|
    :7h9h10-9h10p12---------------------------------------------------------|
    :-----------------------------------------------------------------------|

    -------
    :----------------------------------------------------------------------|
    :-----------------15b------15-18b-------18b--18b/\/\/---18p15-18p15\13-|
    :/15p13h15--17b---17b--17----------------------------------------------|
    :----------------------------------------------------------------------|
    :----------------------------------------------------------------------|
    :----------------------------------------------------------------------|



    :-------------------------------------------------|----------------------|
    :15p13-15/\/\/\/\/\/\/\/\/\\/\/\/\/\/(15)\/\/\/\/\|----------------------|
    :-------------------------------------------------|----------------------|
    :-------------------------------------------------|-------------2h4h5----|
    :-------------------------------------------------|-5-----2h3h5-------3h5|
    :-------------------------------------------------|---3h5----------------|



    :-----------------------------------------------------------------------|
    :-----------------------------------------------------------------------|
    :-----------------------------------------------------------------------|
    :-2h4h5/7-----4h5h7/9-----6h7h9/10------7h8h10/12-------9h10h12/14------|
    :---------5h7---------7h9----------8h10-----------10h12------------12h14|
    :-----------------------------------------------------------------------|



    :------------------------------------------------------------------------|
    :------------------------------------------------------------------------|
    :---------11------8h9h11/12--------9h10h12/13-------10h11h13/14----------|
    :11h12h14----9h11------------10h12------------11h13-------------11h12h14-|
    :------------------------------------------------------------------------|
    :------------------------------------------------------------------------|



    :--------------------------------------------------------------|
    :---------------------------------15---------------------------|
    :11h12----11h12h14p12/17p14h16h17----17p16p14h16p14----14--16b-|
    :------14-------------------------------------------17---------|
    :--------------------------------------------------------------|
    :--------------------------------------------------------------|

    -------------------
    :-------------------------------------------------------------------|
    :-------------------------------------------------------------------|
    :16b-16---16--16-----16---16----14-(14B)--(14)\--11h12h11--14p12p11-|
    :-------------------------------------------------------------------|
    :-------------------------------------------------------------------|
    :-------------------------------------------------------------------|


    :-----------------------------------------------------------------------|
    :-----------------------------------------------------------------------|
    :--------------------14PH/\/\/\/\(14)\----------------------------------|
    :-14p12p11-14p12p11---------------------------------------------12------|
    :------------------------------------------------12----12-14h15----14h15|
    :---------------------------------------12h13h15----15------------------|




    :------------------------------------------------------17b-----------|
    :--------------------------------------------19b--19b--19b-----------|
    :----------------------14----14/16-19p17h19--19b--19b----------------|
    :12----/14h15h17p15h17----17-----------------------------------------|
    :---14---------------------------------------------------------------|
    :--------------------------------------------------------------------|
     

Bu Sayfayı Paylaş