Children of Bodom - Downfall (Bass) - Gitar Akorları

'Müzik Türleri ve Enstrümanları' forumunda KaRDeLeN tarafından 2 Aralık 2009 tarihinde açılan konu

  1. KaRDeLeN

    KaRDeLeN Özel Üye

    Sponsorlu Bağlantılar
    Children of Bodom - Downfall (Bass) - Gitar Akorları konusu

    Children of Bodom - Downfall (Bass) - Gitar Akorları

    Intro
    F|-----------------|-----------------|-----------------|-----------------|
    C|-----------------|-----------------|-----------------|-----------------|
    G|-----------------|-----------------|-----------------|-----------------|
    D|-1---------------|-----------------|-1---R-----------|---------0-3-R---|

    F|-----------------|-----------------|-----------------|-----------------|
    C|-----------------|-----------------|-----------------|-----------------|
    G|-----------------|-----------------|-----------------|-----------------|
    D|-5---------------|-----------------|-5---R-----------|-----------------|

    F|-----------------|-----------------|-----------------|-----------------|
    C|-----------------|-----------------|-----------------|-----------------|
    G|-----------------|-----------------|-----------------|-----------------|
    D|-1---------------|-----------------|-1-1-R-----------|-----------------|

    Fig1
    F|-----------------|-----------------|-----------------|-----------------|
    C|-----------------|-----------------|-----------------|-----------------|
    G|-----------------|-----------------|-----------------|-----------------|
    D|-5-5-5-5-5-5-5-5-|-5-5-5-5-5-5-5-5-|-5-5-5-5-5-5-5-5-|-5-5-5-5-5-5-5-5-|

    F|-----------------|-----------------|-----------------|-----------------|
    C|-----------------|-----------------|-----------------|-----------------|
    G|-8-8-8-8-8-8-8-8-|-8-8-8-8-8-8-8-8-|-8-8-8-8-8-8-8-8-|-8-8-8-8-8-8-8-8-|
    D|-----------------|-----------------|-----------------|-----------------|

    F|-----------------|-----------------|-----------------|-----------------|
    C|-----------------|-----------------|-----------------|-----------------|
    G|-----------------|-----------------|-----------------|-----------------|
    D|-5-5-5-5-5-5-5-5-|-5-5-5-5-5-5-5-5-|-5-5-5-5-5-5-5-5-|-5-5-5-5-5-5-5-5-|

    F|-----------------|-----------------|-----------------|-----------------|
    C|-----------------|-----------------|-----------------|-----------------|
    G|-8-8-8-8-8-8-8-8-|-8-8-8-8-8-8-8-8-|-8-8-8-8-8-8-8-8-|-8-8-8-8---------|
    D|-----------------|-----------------|-----------------|---------3-1-R---|

    Fig2
    F|-----------------|-----------------|-----------------|-----------------|
    C|-----------------|-----------------|-----------------|-----------------|
    G|-----------------|-----------------|-----------------|-3---------------|
    D|-0---------------|-1---------------|-5---------------|-----------------|

    F|-----------------|-----------------|-----------------|-----------------|
    C|-----------------|-----------------|-----------------|-----------------|
    G|-----------------|-----------------|-3---------------|-7---------------|
    D|-1---------------|-5---------------|-----------------|-----------------|

    Fig3
    F|-----------------|-----------------|-----------------|-------------------------|
    C|-----------------|-----------------|-7-7-7-7-7-7-7-7-|-10-10-10-10-10-10-10-10-|
    G|-7-7-7-7-7-7-7-7-|-8-8-8-8-8-8-8-8-|-----------------|-------------------------|
    D|-----------------|-----------------|-----------------|-------------------------|

    F|-----------------|-----------------|-------------------------|-9-9-9-9-9-9-9-9-|
    C|-----------------|-7-7-7-7-7-7-7-7-|-10-10-10-10-10-10-10-10-|-----------------|
    G|-8-8-8-8-8-8-8-8-|-----------------|-------------------------|-----------------|
    D|-----------------|-----------------|-------------------------|-----------------|

    Fig4
    F|-----------------|-----------------|-----------------|-----------------|
    C|-----------------|-----------------|-----------------|-----------------|
    G|-----------------|-----------------|-----------------|-----------------|
    D|-5-R-556-R-3-R-5-|-R---------------|-6-R-111-R-3-R-6-|-R---------------|

    F|-----------------|-----------------|-----------------|----------------------------|-----|
    C|-----------------|-----------------|-----------------|------9-10-12-10H12P10------|-----|
    G|-----------------|-----------------|-----------------|---12-----------------10-10-|-12'-|
    D|-5-R-556-R-3-R-5-|-R---------------|-6-R-111-R-3-R-6-|-R--------------------------|-----|

    Fig41
    F|-----------------|-----------------|-----------------|-----------------|
    C|-----------------|-----------------|-----------------|-----------------|
    G|-----------------|-----------------|-----------------|-----------------|
    D|-5-R-556-R-3-R-5-|-R---------------|-6-R-111-R-3-R-6-|-R---------------|

    F|-----------------|-----------------|-----------------|-----------------|
    C|-----------------|-----------------|-----------------|-----------------|
    G|-----------------|-----------------|-----------------|-----------------|
    D|-5-R-556-R-3-R-5-|-R---------------|-6-R-111-R-3-R-6-|-R---------------|

    F|-----------------|-----------------|-----------------|-----------------|
    C|-----------------|-----------------|-----------------|-----------------|
    G|-----------------|-----------------|-----------------|-----------------|
    D|-5-R-------------|-----------3-R-5-|-R---------------|-----------------|

    F|-----------------|-----------------|-----------------|-----------------|
    C|-----------------|-----------------|-----------------|-----------------|
    G|-----------------|-----------------|-----------------|-----------------|
    D|-1---------------|-----------------|-1-1-R-----------|---------3-1-R---|

    Fig5
    F|-----------------|-----------------|-----------------|---------9&------|
    C|-----------------|-----------------|-----------------|-----------------|
    G|-----------------|-3---------------|-----------------|-5---------------|
    D|-5---------------|-----------------|-3---------------|-----------------|

    F|-17---16---14--------|-20---19---17--------|---------------------|---------------------|
    C|----------------14---|----------------17---|-20---19---17--------|------15---14---15---|
    G|---------------------|---------------------|----------------17---|-17------------------|
    D|---------------------|---------------------|---------------------|---------------------|

    F|-----------------|-----------------|-----------------|-----------------|
    C|-----------------|-----------------|-----------------|-----------------|
    G|-----------------|-----------------|-----------------|-----------------|
    D|-5-5-5-3---3-3-5-|---5-5-3---3-3-1-|-1---------------|-11111---11111---|

    Chorus
    F|-----------------|-----------------|-----------------|-----------------|
    C|-----------------|-----------------|-----------------|-----------------|
    G|-----------------|-----------------|-----------------|-----------------|
    D|-5-------0-------|-5-------0-------|-1-------3-------|-5-------0-------|

    Chorus2
    F|-----------------|-----------------|-----------------|-----------------|
    C|-----------------|-----------------|-----------------|-----------------|
    G|-2---------------|-2---------------|-----------------|-2---------------|
    D|---------2-------|---------2-------|-3-------5-------|---------2-------|

    Fig6
    F|-----------------|-----------------|-----------------|-----------------|
    C|-----------------|-----------------|-----------------|-----------------|
    G|---------------8-|-8---------------|-5---------------|-8---------------|
    D|-----------------|-----------------|-----------------|-----------------|

    F|-----------------|-----------------|-------------7-9-|-10---9---7--------|---9-----7-------|
    C|-----------------|-----------------|-----------------|--------------10---|-----------------|
    G|-3---------------|-----------------|-5---------------|-------------------|-----------------|
    D|---------3-------|-----3-3-3---3-3-|-----------------|-------------------|-----------------|

    F|-----------------|-----------------|---|---|---|---|---|---|---|
    C|-----------------|-----------------|---|---|---|---|---|---|---|
    G|-----------------|-----------------|---|---|---|---|---|---|---|
    D|-----------------|-5---------------|---|---|---|---|---|---|---|

    Fig7
    F|-----------------|-----------------|-----------------|-----------------|-----------------|
    C|-----------------|-----------------|-----------------|-----------------|-----------------|
    G|-7---7-7---7-7---|-3---3-5---5-5---|-7---7-7---7-7---|-3---3-5---5-5---|-7---7-7---7-7---|
    D|-----------------|-----------------|-----------------|-----------------|-----------------|

    F|-----------------|-----------------|-----------------|-----------------|-----------------|
    C|---------7-------|-----------------|-----------------|-----------------|-----------------|
    G|-6---9-------9---|-5---7-7---5-5---|-7-7-----5---3---|-7---7-7---7-7---|-3---3-5---5-5---|
    D|-----------------|-----------------|-----------------|-----------------|-----------------|

    F|-----------------|-----------------|-----------------|-----------------|-----------------|
    C|-------------4---|-5---7---9-----9-|---------9-----9-|-----------------|-----------------|
    G|-3---5---7-------|-----------------|-----------------|---------3---2---|-0-------5-4-2-0-|
    D|-----------------|-----------------|-----------------|-----------------|-----3-----------|

    F|-----------------|-----------------|-----------------|-------------0-2-|-4---------------|
    C|-----------------|-----------------|-----------------|-----1---2-4-----|-----------------|
    G|-2-R-5-R-7-R-----|-----7-R---------|---------0---1---|-2---------------|-----5-R-7-R-----|
    D|-----------------|---------5-R-----|-----------------|-----------------|-----------------|

    F|-----------------|-----------------|-----------------|---------|-----------------|
    C|-----------------|-----------------|-----------------|-2-R-----|-----------------|
    G|-----7-R---------|---------2-R-----|-------------2-R-|---------|-0-R-------------|
    D|---------5-R-----|-----------------|-----------------|---------|-----------------|

    Fig8
    F|-----------------|-----------------|-----------------|-----------------|
    C|-----------------|-----------------|-----------------|-----------------|
    G|-----------------|-----------------|-----------------|-----------------|
    D|-7-7-7-5---5-5-7-|---7-7-5---5-5-3-|-----------------|-----------------|

    F|-----------------|-----------------|
    C|-----------------|-----------------|
    G|-2-2-R-2-2-------|-----------------|
    D|-----------------|-----------------|

    ----------------
    Song structure: |
    ----------------
    Intro 1x
    Fig1 1x
    Fig2 1x
    Fig3 2x
    Fig4 1x
    Fig5 1x
    Chorus 4x
    Fig41 1x
    Fig2 1x
    Fig3 2x
    Fig6 1x
    Fig7 1x
    Fig5 1x
    Chorus 2x
    Chorus2 2x
    Fig8 1x ​
     

Bu Sayfayı Paylaş