Children of Bodom - Dont Stop At The Top (tab) - Gitar Akorları

'Müzik Türleri ve Enstrümanları' forumunda KaRDeLeN tarafından 2 Aralık 2009 tarihinde açılan konu

  1. KaRDeLeN

    KaRDeLeN Özel Üye

    Sponsorlu Bağlantılar
    Children of Bodom - Dont Stop At The Top (tab) - Gitar Akorları konusu

    Children of Bodom - Dont Stop At The Top (tab) - Gitar Akorları

    E||-----------------------|------------------------|-----------------------|
    b||-----------------------|------------------------|-----------------------|
    g||-----------------------|------------------------|-----------------------|
    d||-------------8----7----|------------------------|-------------8----7----|
    a||--8----10--------------|--8----10----8----10----|--8----10--------------|
    e||-----------------------|------------------------|-----------------------|



    -------------------------|-----------------------|------------------------|
    -------------------------|-----------------------|------------------------|
    -------12----10----12----|-----------------------|------------------------|
    -------------------------|--8----7---------------|------------------------|
    --8----------------------|------------8----10----|--8----10----8----10----|
    -------------------------|-----------------------|------------------------|



    -----------------------|--------|--------------------------|
    -----------------------|--------|--------------------------|
    -----------------12----|--14----|--12----10----12----14----|
    --8----7---------------|--------|--------------------------|
    ------------8----------|--------|--------------------------|
    -----------------------|--------|--------------------------|



    --------------------------|--------------------------|
    --------------------------|--------------------------|
    --15----14----12----10----|--------12----10----12----|
    --------------------------|--12----------------------|
    --------------------------|--------------------------|
    --------------------------|--------------------------|



    --------------------------|--------------|--------------------------|
    --------------------------|--------------|--------------------------|
    --14----17----15----14----|--12----10----|--12----10----12----14----|
    --------------------------|--------------|--------------------------|
    --------------------------|--------------|--------------------------|
    --------------------------|--------------|--------------------------|



    --------------------------|--------------------------|
    --------------------------|--------------------------|
    --15----14----12----10----|--------12----10----12----|
    --------------------------|--12----------------------|
    --------------------------|--------------------------|
    --------------------------|--------------------------|



    --------------------------|--------------||
    --------------------------|--------------||
    --14----17----15----14----|--12----10----||
    --------------------------|--------------||
    --------------------------|--------------||
    --------------------------|--------------||
     

Bu Sayfayı Paylaş