Black Winter Day - Amorphis-Gitar Akorları

'Müzik Türleri ve Enstrümanları' forumunda Dine tarafından 22 Şubat 2010 tarihinde açılan konu

  1. Dine

    Dine Özel Üye

    Sponsorlu Bağlantılar
    Black Winter Day - Amorphis-Gitar Akorları konusu
    Black Winter Day - Amorphis



    |------------------------------|​

    |------------------------------|
    |------------------------------|
    |--2---2-2-2-2----5---5-5-5-5--|

    Intro (0:12)
    |--------------------------------------|
    |--------------------------------------|
    |--------------------------------------|
    |--7---7-7---3--3-3---7--7-7---5--5-5--|

    |-----------------------------------|
    |-----------------------------------|
    |-----------------------------------|
    |--7---7-7---3--3-3---2-2-2--5-5-5--| x2

    Verse (0:33)
    |------------------------------------------------------------|
    |------------------------------------------------------------|
    |----------5--5-5----------7--7-7----------5--5-5------------|
    |--7--7-7----------7--7-7----------7--7-7----------0-3-2-3~--|

    |------------------------------------------------------------|
    |--------------------------------------------------5-4-------|
    |----------5--5-5----------7--7-7----------5--5-5------5-7~--|
    |--7--7-7----------7--7-7----------7--7-7--------------------|

    Chorus (0:53)
    |------------------------------------------------------------------|
    |------------------------------------------------------------------|
    |----------5--5-5----------7--7-7----------------------------------|
    |--7--7-7----------7--7-7----------7--7-7--7--7-7--2--2-2--2--2-2--| x4

    After-Chorus (1:34)
    |----------------------------|
    |----------------------------|
    |----------3-5---------------|
    |-0--0-0-0------0--0-0-0-3-5-| x4

    Chorus x4 (1:54)
    Intro x2 (2:34)
    Verse x2 (with the 4 last notes in a slower tempo) (2:54)

    Ending
    |-------------------|
    |-------------------|
    |--------5~---------|
    |--7~----------0~~--|
     

Bu Sayfayı Paylaş