Black Star tab - Carcass-Gitar Akorları

'Müzik Türleri ve Enstrümanları' forumunda Dine tarafından 22 Şubat 2010 tarihinde açılan konu

  1. Dine

    Dine Özel Üye

    Sponsorlu Bağlantılar
    Black Star tab - Carcass-Gitar Akorları konusu
    Black Star sekmesi - Carcass-Gitar Akorları


    |---------------------|---|---------------------|- ------------|
    |---------------------|---|---------------------|- ------------|
    |---------------------|---|---------------------|- ------------|
    |---------------------|-%-|---------------------|- ------------|
    | -7-6-5 ----------- 2 ---|---|- 7-6-5 ----------- 5 ---|- - 5-8 --- 7 --- |
    |------- 7-6-0-3-5-0 ---|---|------- 7-6-0-3-5-3 ---|- - 3-6 --- 5 --- |

    |--------------------------------------------|---|
    |--------------------------------------------|---|
    |------------------ 5 -------------------------|---|
    |---------------- 4 --- 4 -----------------------|-%-|
    | -2 ----- 2-2 ---- 5 ------- 2 ----- 2-2 ----- 2 --- 2-2 -|---|
    | -0 ----- 0-0 ------------ 0 ----- 0-0 ----- 0 --- 0-0 -|---|

    |------------------------------|
    |------------------------------|
    |------------------ 8 -----------|
    |---------------- 7 --- 7 ---------|
    | -5 ----- 5-5 ---- 8 ------- 5 ----- 5 - |
    | -3 ----- 3-3 ------------ 3 ----- 3 - |

    |-------------------------------|----------------- --------------|
    |-------------------------------|----------------- --------------|
    |---------- s -------------------- |---------- s ------ --------------|
    |--------- 97----------- --------|--------- 97 ---- hh --- hp ------|
    |-2 --- 2-2-75 ---- hh hh --- ------ | -2 --- 2-2-75 --- 0-2-5-0-1 -- 0 -----|
    | -0 --- 0-0 ------- 5-6-7-3-4-5-3 ---|- 0 --- 0-0 --------- ---------- 3 --- |

    |--------------------------------|---|---|-------- -------------------------|
    |--------------------------------|---|---|-------- -------------------------|
    |--------------------------------|---|---|-------- -------------------------|
    |--------- 7 --- 9 -------- 12-11 -----|-%-|-%-|---------- -5 ----- 5-7 ----- 7-9 -----|
    |--------- 5 --- 7 -------- 10-9 -----|---|---|- 5-7 ----- 7-3-3-3-3-5-5-5-5-7-7-7 - |
    | -0 --- 0-0 ---------- 0-0 ------- 0-0 -|---|---|- 3-5-5-5 -5 -----------------------|

    |--------------------------------|---|---|-------- -------------------------|
    |--------------------------------|---|---|-------- -------------------------|
    |--------------------------------|---|---|-------- -------------------------|
    | --- GTR.1-4 --- 5 --------- 9-7 -----|-%-|-%-|----------- 5 ---- -5-7 ----- 7-9 -----|
    | --- GTR.2-5 --- 7 -------- 10-9 -----|---|---|- 5-7 ----- 7-3-3-3 -- 3-5-5-5-5-7-7-7 - |
    | -0 --- 0-0 ---------- 0-0 ------- 0-0 -|---|---|- 3-5-5-5 -5 -----------------------|

    Guitar solo:
    |--------------------------------- ---- P & tam-p --- |
    | --- h - p ------------- & tam ------ 17-15-17 --- (17) 15 - |
    | -11-12-11 ---- 14 ---- 14----------- -----------------|
    |---------- 14----------- --------------------------|
    |------------------------------------------------- |
    |------------------------------------------------- |
    P P S P
    |------------------------------- 17-15-14-15-14 ----|
    | --- h - p ------------- & full --------------------- 15-|
    | -11-12-11 ---- 14 ---- 14----------- -----------------|
    |---------- 14----------- --------------------------|
    |------------------------------------------------- |
    |------------------------------------------------- |

    bir..
    |------------------------------------------------- |
    | --- h - p ------------- & full ------- 17 -------------- |
    | -11-12-11 ---- 14 ---- 14----------- -----------------|
    |---------- 14----------- --------------------------|
    |------------------------------------------------- |
    |------------------------------------------------- |

    |------------------------------------------------- |
    | --- s ----------- ----------- s s s ----------- --------- |
    | -12-14-14-14-14-12-12-12-12-14-14-14-14-12-12-12 - |
    |------------------------------------------------- |
    |------------------------------------------------- |
    |------------------------------------------------- |

    | - & & tam parça ------- ------- &-------& tam --------- |
    | -15 ---------- 15---------- 15-12 ---- 15----------- - |
    |------------------------------- 14----------- -----|
    |------------------------------------------------- |
    |------------------------------------------------- |
    |------------------------------------------------- |

    s p s p s p
    | -12-15-12 ---- 12-17-12 ---- 12-15-12 ---- 12---------- |
    |---------- 15---------- 15---------- 15----------- - |
    |------------------------------------------------- |
    |------------------------------------------------- |
    |------------------------------------------------- |
    |------------------------------------------------- |

    h p
    | 121.512 ---- 12----------- --------------------------|
    |------- 15 ---- 15-12----------- --------------------|
    |------------------- 14-13-12 ----------------------|
    |---------------------------- 14-13-12 -------------|
    |------------------------------------- 14-13-12 ----|
    |---------------------------------------------- 15 - |

    & Tam p
    |------------------------------------- 15 ------ 1.512 |
    |------------------------------- 12-15----------- - |
    |------------------------- 12-14----------- --------|
    |---------------- 12-13-14 -------------------------|
    |------- 12-13-14 ----------------------------------|
    | -12-15 -------------------------------------------|

    | - & tam -------
    | -15 -----------
    |--------------
    |--------------
    |--------------

    |--------------
     

Bu Sayfayı Paylaş