Aman Aman Gitar Akorları - Duman

'Müzik Türleri ve Enstrümanları' forumunda Mavi_inci tarafından 12 Mayıs 2011 tarihinde açılan konu

  1. Mavi_inci

    Mavi_inci Özel Üye

    Sponsorlu Bağlantılar
    Aman Aman Gitar Akorları - Duman konusu Aman Aman Gitar Akorları - Duman-Duman Aman Aman gitar tabları



    Solo

    E)------------------------------------------------------
    B)-2-2-2-3-2-0---0-0-0-2-0------2-2-2-3-2-0-------------
    G)-------------------------2----------------1-1-1-2-1---
    D)----------------------------------------------------4-
    A)------------------------------------------------------
    E)------------------------------------------------------

    E)---------------0-0-0-2-0------------------------------
    B)-2-2-2-3-2-0-------------2---2-2-2-3-2-0--------------
    G)-----------------------------------------1-1-1-2-1----
    D)---------------------------------------------------4--
    A)------------------------------------------------------
    E)------------------------------------------------------

    E)-------------
    B)-------------
    8 Kere F#m 1 kere E G)---------1-2- Sonra 2 kere F#m
    D)-2-2-2-4-----
    A)-------------
    E)-------------

    F#m E
    Nereye gider başını alıp sorarsın
    F#m E
    Kimbilir durmadan nasıl susarsın
    F#m E
    Bilmeden boşuna atıp tutarsın
    F#m E F#m
    Su gibi akıp geçer zaman
    E)------------- E)-------------
    B)------------- B)-------------
    G)-1-1-1-2-1--- 8 Kere F#m 1 kere E G)---------1-2-
    D)-----------4- D)-2-2-2-4-----
    A)------------- A)-------------
    E)------------- E)-------------

    F#m E
    Gezdin tozdun aman aman aman
    F#m E
    Sazdın sözdün aman aman aman
    F#m E F#m
    Giderek üzdün bizi zaman
    F#m E F#m
    Giderek üzdün bizi zaman NAKARAT 2 kere
    F#m E
    Yazdın çizdin aman aman aman
    F#m E
    İncecik izdin aman aman aman
    F#m E F#m
    Sıraya dizdin bizi zaman
    F#m E F#m
    Sıraya dizdin bizi zaman

    Tekrar Solo ( Canınız İstiyorsa )

    F#m E
    Hep kaçıp yeni bir adım atarken
    F#m E
    Dibine kadar çileye batıp çıkarken
    F#m E
    İçine atıp atıp yoluna basıp giderken
    F#m E F#m
    Su gibi akıp geçer zaman



    akormerkezi
     

Bu Sayfayı Paylaş