İyi de Banane Gitar Akorları - Duman

'Müzik Türleri ve Enstrümanları' forumunda Mavi_inci tarafından 12 Mayıs 2011 tarihinde açılan konu

  1. Mavi_inci

    Mavi_inci Özel Üye

    Sponsorlu Bağlantılar
    İyi de Banane Gitar Akorları - Duman konusu İyi de Banane Gitar Akorları - Duman-Duman İyi de Banane gitar tabları



    E-------------------------------------------------------------------------
    B---12-10-8-7-5-5-5-12-10-8-7-5-5-5---------------------------------------
    G------------------------------------7/9-11h12p11-------------------------
    D-------------------------------------------------------------------------



    E--------------------------------------------------------------------------
    B-----10-8-7-----------10-8-7----------------------------------------------
    G-------------9-7-7-7---------9-7-7-7--7/9-11h12--9------------------------
    D--------------------------------------------------------------------------



    Em D
    yepyeni bir insanımız var
    D Am
    akıl yolundan öylesine uzaklar
    Em D
    aralarında hoş bir uyum var
    D Am
    ayıp değil mi, hiç mi umursamazlar

    Em
    altınlarınızı çaldılar
    Em
    topraklarınızı verdiler
    Em
    tarihi baştan yazdılar
    D
    iyi de bana ne

    D
    insanlığımızı ezdiler
    D
    aydınlarımızı kestiler
    D
    ülkeyi çoktan sattılar
    Em
    iyi de sana ne

    Em D
    yepyeni bir insanımız var
    D Am
    düşünmeden ah, kardeşini boğazlar
    Em D
    laf aramızda, aslında tek bir sorun var
    D Am
    günah değilmiş memlekete olanlar

    Em
    altınlarınızı çaldılar
    Em
    topraklarınızı verdiler
    Em
    tarihi baştan yazdılar
    D
    iyi de bana ne

    D
    insanlığımızı ezdiler
    D
    aydınlarımızı kestiler
    D
    ülkeyi çoktan sattılar
    Em
    iyi de sana ne



    akormerkezi
     

Bu Sayfayı Paylaş